FC2ブログ

TURBULENCE

Good-bye halcyon days

上記の広告は1ヶ月以上更新のないブログに表示されています。
新しい記事を書く事で広告が消せます。
--.--.-- --:-- | スポンサー広告 | トラックバック(-) | コメント(-) |

今日はバンドの練習でした。


とりま『おしゃかしゃま』のギターをば。


イントロのリフの部分です。

弦)

1)------------------------------------------------

2)------------------------------------------------

3)--------------------7---5-----------------------

4)--------0---5---7------------7---0---7---8---7--

5)------------------------------------------------

6)------------------------------------------------




弦)

1)---------------------------------------------------

2)---------------------------------------------------

3)---------------------------------------------------

4)-----------------5---0---3---0---7---8---0---5---7-

5)-----0---3---5-------------------------------------

6)---------------------------------------------------



弦)

1)------------------------------------------------

2)------------------------------------------------

3)--------------------7---5-----------------------

4)--------0---5---7------------7---0---7---8---7--

5)------------------------------------------------

6)------------------------------------------------



弦)

1)-----------------------------------------

2)-----------------------------------------

3)----------------0---3---5-5-5-5-5-5-5-5-5

4)--------0---3----------------------------

5)-----------------------------------------

6)-----------------------------------------


弦)no.1

1)------------------------------------------------

2)------------------------------------------------

3)--------------------7---5-----------------------

4)--------0---5---7------------7---0---7---8---7--

5)------------------------------------------------

6)------------------------------------------------



弦)no.2

1)---------------------------------------------------

2)---------------------------------------------------

3)---------------------------------------------------

4)-----------------5---0---3---0---7---8---0---5---7-

5)-----0---3---5-------------------------------------

6)---------------------------------------------------



弦)no.3

1)------------------------------------------------

2)------------------------------------------------

3)--------------------7---5-----------------------

4)--------0---5---7------------7---0---7---8---7--

5)------------------------------------------------

6)------------------------------------------------



弦)no.4

1)--------------------------------------------------

2)--------------------------------------------------

3)----------------0---3---5---0---7---9---0---5---7-

4)--------0---3-------------------------------------

5)--------------------------------------------------

6)--------------------------------------------------



あとはno.1~no.4をくりかえします。







ハンマリングとかプリングとか使われてますが、その辺はてきとうにw




んで本題。

今日はリーダー、F君、Y君(途中で帰ったw)


最初はグチャグチャでしたが!!!途中から覚醒!


理由としてはF君の『車輪の唄を切なそうにやろう』発言があったせいです。




いや、詳しくは語りません。ってか語れません。



三人ですが、異常に素晴らしいアンサンブルが出来ました。
あれだけ心地よく演奏出来たのは初めてです。



んで、リーダーかF君の提案で、曲の”色”を考えようと。

>>曇天

歌詞の解釈をみんなでしたところ、雰囲気的にこんな色でした。



>>車輪の唄

序盤は黄色、中盤から終盤にかけては青色ですね。



>>The Autumn Song

これは間違いなく。



後は、暖系色の特に赤色の歌が欲しいな。
候補としては『sailing day』ですかね。







スポンサーサイト

一応名前従ったよw

お疲れさんー
今日楽しかったわw

また揃ったときが楽しみやわ♪

更新がんばってなーb

2009.04.04 21:46 URL | リーダー #- [ 編集 ]

そんなに難しくないリフだな


耳コピかい?

2009.04.08 20:46 URL | #- [ 編集 ]

> そんなに難しくないリフだな
>
>
> 耳コピかい?


そうですね。速いですが
ある程度は耳コピですが、自信ないところは他のサイトを見ました

2009.04.08 22:01 URL | (21) #- [ 編集 ]













管理者にだけ表示

トラックバックURL↓
http://akatuki871.blog73.fc2.com/tb.php/91-591727e5

上記広告は1ヶ月以上更新のないブログに表示されています。新しい記事を書くことで広告を消せます。